ISO-10303-21;
HEADER;
/* Generated by software containing ST-Developer
 * from STEP Tools, Inc. (www.steptools.com) 
 */
/* OPTION: using custom schema-name function */

FILE_DESCRIPTION(
/* description */ (''),
/* implementation_level */ '2;1');

FILE_NAME(
/* name */ 'P LIMIT SELECTOR_STEP214',
/* time_stamp */ '2008-08-13T11:12:26+01:00',
/* author */ (''),
/* organization */ (''),
/* preprocessor_version */ 'ST-DEVELOPER v9',
/* originating_system */ 'UGS - NX 3.0',
/* authorisation */ '');

FILE_SCHEMA (('AUTOMOTIVE_DESIGN { 1 0 10303 214 1 1 1 1 }'));
ENDSEC;

DATA;
#10=SHAPE_REPRESENTATION_RELATIONSHIP('none',
'relationship between gh1206BAj15r-none and gh1206BAj15r-none',#22,#11);
#11=ADVANCED_BREP_SHAPE_REPRESENTATION('gh1206BAj15r-none',(#32),#319);
#12=SHAPE_DEFINITION_REPRESENTATION(#13,#22);
#13=PRODUCT_DEFINITION_SHAPE('','',#14);
#14=PRODUCT_DEFINITION(' ','',#16,#15);
#15=PRODUCT_DEFINITION_CONTEXT('part definition',#21,'design');
#16=PRODUCT_DEFINITION_FORMATION_WITH_SPECIFIED_SOURCE(' ',' ',#18,.NOT_KNOWN.);
#17=PRODUCT_RELATED_PRODUCT_CATEGORY('part','',(#18));
#18=PRODUCT('gh1206BAj15r','gh1206BAj15r',' ',(#19));
#19=PRODUCT_CONTEXT(' ',#21,'mechanical');
#20=APPLICATION_PROTOCOL_DEFINITION('international standard',
'automotive_design',2001,#21);
#21=APPLICATION_CONTEXT(
'core data for automotive mechanical design processes');
#22=SHAPE_REPRESENTATION('gh1206BAj15r-none',(#210),#319);
#23=PRESENTATION_LAYER_ASSIGNMENT('1','Layer 1',(#32));
#24=STYLED_ITEM('',(#25),#32);
#25=PRESENTATION_STYLE_ASSIGNMENT((#26));
#26=SURFACE_STYLE_USAGE(.BOTH.,#27);
#27=SURFACE_SIDE_STYLE('',(#28));
#28=SURFACE_STYLE_FILL_AREA(#29);
#29=FILL_AREA_STYLE('',(#30));
#30=FILL_AREA_STYLE_COLOUR('',#31);
#31=COLOUR_RGB('130 (Dark Gray)',0.4,0.4,0.4);
#32=MANIFOLD_SOLID_BREP('',#33);
#33=CLOSED_SHELL('',(#34,#35,#36,#37,#38,#39,#40,#41,#42,#43));
#34=ADVANCED_FACE('',(#54),#44,.T.);
#35=ADVANCED_FACE('',(#55),#45,.T.);
#36=ADVANCED_FACE('',(#56),#46,.T.);
#37=ADVANCED_FACE('',(#57),#47,.T.);
#38=ADVANCED_FACE('',(#58),#48,.T.);
#39=ADVANCED_FACE('',(#59),#49,.T.);
#40=ADVANCED_FACE('',(#60),#50,.T.);
#41=ADVANCED_FACE('',(#61),#51,.T.);
#42=ADVANCED_FACE('',(#62),#52,.T.);
#43=ADVANCED_FACE('',(#63),#53,.T.);
#44=PLANE('',#211);
#45=PLANE('',#212);
#46=PLANE('',#213);
#47=PLANE('',#214);
#48=PLANE('',#215);
#49=PLANE('',#216);
#50=PLANE('',#217);
#51=PLANE('',#218);
#52=PLANE('',#219);
#53=PLANE('',#220);
#54=FACE_OUTER_BOUND('',#64,.T.);
#55=FACE_OUTER_BOUND('',#65,.T.);
#56=FACE_OUTER_BOUND('',#66,.T.);
#57=FACE_OUTER_BOUND('',#67,.T.);
#58=FACE_OUTER_BOUND('',#68,.T.);
#59=FACE_OUTER_BOUND('',#69,.T.);
#60=FACE_OUTER_BOUND('',#70,.T.);
#61=FACE_OUTER_BOUND('',#71,.T.);
#62=FACE_OUTER_BOUND('',#72,.T.);
#63=FACE_OUTER_BOUND('',#73,.T.);
#64=EDGE_LOOP('',(#74,#75,#76,#77));
#65=EDGE_LOOP('',(#78,#79,#80,#81,#82,#83,#84,#85));
#66=EDGE_LOOP('',(#86,#87,#88,#89));
#67=EDGE_LOOP('',(#90,#91,#92,#93));
#68=EDGE_LOOP('',(#94,#95,#96,#97,#98,#99,#100,#101));
#69=EDGE_LOOP('',(#102,#103,#104,#105));
#70=EDGE_LOOP('',(#106,#107,#108,#109));
#71=EDGE_LOOP('',(#110,#111,#112,#113));
#72=EDGE_LOOP('',(#114,#115,#116,#117));
#73=EDGE_LOOP('',(#118,#119,#120,#121));
#74=ORIENTED_EDGE('',*,*,#138,.T.);
#75=ORIENTED_EDGE('',*,*,#139,.T.);
#76=ORIENTED_EDGE('',*,*,#140,.F.);
#77=ORIENTED_EDGE('',*,*,#141,.T.);
#78=ORIENTED_EDGE('',*,*,#140,.T.);
#79=ORIENTED_EDGE('',*,*,#142,.T.);
#80=ORIENTED_EDGE('',*,*,#143,.F.);
#81=ORIENTED_EDGE('',*,*,#144,.T.);
#82=ORIENTED_EDGE('',*,*,#145,.T.);
#83=ORIENTED_EDGE('',*,*,#146,.T.);
#84=ORIENTED_EDGE('',*,*,#147,.F.);
#85=ORIENTED_EDGE('',*,*,#148,.T.);
#86=ORIENTED_EDGE('',*,*,#147,.T.);
#87=ORIENTED_EDGE('',*,*,#149,.T.);
#88=ORIENTED_EDGE('',*,*,#150,.F.);
#89=ORIENTED_EDGE('',*,*,#151,.T.);
#90=ORIENTED_EDGE('',*,*,#152,.F.);
#91=ORIENTED_EDGE('',*,*,#141,.F.);
#92=ORIENTED_EDGE('',*,*,#148,.F.);
#93=ORIENTED_EDGE('',*,*,#151,.F.);
#94=ORIENTED_EDGE('',*,*,#152,.T.);
#95=ORIENTED_EDGE('',*,*,#150,.T.);
#96=ORIENTED_EDGE('',*,*,#153,.T.);
#97=ORIENTED_EDGE('',*,*,#154,.F.);
#98=ORIENTED_EDGE('',*,*,#155,.T.);
#99=ORIENTED_EDGE('',*,*,#156,.T.);
#100=ORIENTED_EDGE('',*,*,#157,.T.);
#101=ORIENTED_EDGE('',*,*,#138,.F.);
#102=ORIENTED_EDGE('',*,*,#139,.F.);
#103=ORIENTED_EDGE('',*,*,#157,.F.);
#104=ORIENTED_EDGE('',*,*,#158,.F.);
#105=ORIENTED_EDGE('',*,*,#142,.F.);
#106=ORIENTED_EDGE('',*,*,#149,.F.);
#107=ORIENTED_EDGE('',*,*,#146,.F.);
#108=ORIENTED_EDGE('',*,*,#159,.F.);
#109=ORIENTED_EDGE('',*,*,#153,.F.);
#110=ORIENTED_EDGE('',*,*,#154,.T.);
#111=ORIENTED_EDGE('',*,*,#159,.T.);
#112=ORIENTED_EDGE('',*,*,#145,.F.);
#113=ORIENTED_EDGE('',*,*,#160,.T.);
#114=ORIENTED_EDGE('',*,*,#143,.T.);
#115=ORIENTED_EDGE('',*,*,#158,.T.);
#116=ORIENTED_EDGE('',*,*,#156,.F.);
#117=ORIENTED_EDGE('',*,*,#161,.T.);
#118=ORIENTED_EDGE('',*,*,#155,.F.);
#119=ORIENTED_EDGE('',*,*,#160,.F.);
#120=ORIENTED_EDGE('',*,*,#144,.F.);
#121=ORIENTED_EDGE('',*,*,#161,.F.);
#122=VERTEX_POINT('',#269);
#123=VERTEX_POINT('',#270);
#124=VERTEX_POINT('',#272);
#125=VERTEX_POINT('',#274);
#126=VERTEX_POINT('',#278);
#127=VERTEX_POINT('',#280);
#128=VERTEX_POINT('',#282);
#129=VERTEX_POINT('',#284);
#130=VERTEX_POINT('',#286);
#131=VERTEX_POINT('',#288);
#132=VERTEX_POINT('',#292);
#133=VERTEX_POINT('',#294);
#134=VERTEX_POINT('',#300);
#135=VERTEX_POINT('',#302);
#136=VERTEX_POINT('',#304);
#137=VERTEX_POINT('',#306);
#138=EDGE_CURVE('',#122,#123,#162,.T.);
#139=EDGE_CURVE('',#123,#124,#163,.T.);
#140=EDGE_CURVE('',#125,#124,#164,.T.);
#141=EDGE_CURVE('',#125,#122,#165,.T.);
#142=EDGE_CURVE('',#124,#126,#166,.T.);
#143=EDGE_CURVE('',#127,#126,#167,.T.);
#144=EDGE_CURVE('',#127,#128,#168,.T.);
#145=EDGE_CURVE('',#128,#129,#169,.T.);
#146=EDGE_CURVE('',#129,#130,#170,.T.);
#147=EDGE_CURVE('',#131,#130,#171,.T.);
#148=EDGE_CURVE('',#131,#125,#172,.T.);
#149=EDGE_CURVE('',#130,#132,#173,.T.);
#150=EDGE_CURVE('',#133,#132,#174,.T.);
#151=EDGE_CURVE('',#133,#131,#175,.T.);
#152=EDGE_CURVE('',#122,#133,#176,.T.);
#153=EDGE_CURVE('',#132,#134,#177,.T.);
#154=EDGE_CURVE('',#135,#134,#178,.T.);
#155=EDGE_CURVE('',#135,#136,#179,.T.);
#156=EDGE_CURVE('',#136,#137,#180,.T.);
#157=EDGE_CURVE('',#137,#123,#181,.T.);
#158=EDGE_CURVE('',#126,#137,#182,.T.);
#159=EDGE_CURVE('',#134,#129,#183,.T.);
#160=EDGE_CURVE('',#128,#135,#184,.T.);
#161=EDGE_CURVE('',#136,#127,#185,.T.);
#162=LINE('',#268,#186);
#163=LINE('',#271,#187);
#164=LINE('',#273,#188);
#165=LINE('',#275,#189);
#166=LINE('',#277,#190);
#167=LINE('',#279,#191);
#168=LINE('',#281,#192);
#169=LINE('',#283,#193);
#170=LINE('',#285,#194);
#171=LINE('',#287,#195);
#172=LINE('',#289,#196);
#173=LINE('',#291,#197);
#174=LINE('',#293,#198);
#175=LINE('',#295,#199);
#176=LINE('',#297,#200);
#177=LINE('',#299,#201);
#178=LINE('',#301,#202);
#179=LINE('',#303,#203);
#180=LINE('',#305,#204);
#181=LINE('',#307,#205);
#182=LINE('',#309,#206);
#183=LINE('',#311,#207);
#184=LINE('',#313,#208);
#185=LINE('',#315,#209);
#186=VECTOR('',#223,1.);
#187=VECTOR('',#224,1.);
#188=VECTOR('',#225,1.);
#189=VECTOR('',#226,1.);
#190=VECTOR('',#229,1.);
#191=VECTOR('',#230,1.);
#192=VECTOR('',#231,1.);
#193=VECTOR('',#232,1.);
#194=VECTOR('',#233,1.);
#195=VECTOR('',#234,1.);
#196=VECTOR('',#235,1.);
#197=VECTOR('',#238,1.);
#198=VECTOR('',#239,1.);
#199=VECTOR('',#240,1.);
#200=VECTOR('',#243,1.);
#201=VECTOR('',#246,1.);
#202=VECTOR('',#247,1.);
#203=VECTOR('',#248,1.);
#204=VECTOR('',#249,1.);
#205=VECTOR('',#250,1.);
#206=VECTOR('',#253,1.);
#207=VECTOR('',#256,1.);
#208=VECTOR('',#259,1.);
#209=VECTOR('',#262,1.);
#210=AXIS2_PLACEMENT_3D('',#267,#221,#222);
#211=AXIS2_PLACEMENT_3D('',#276,#227,#228);
#212=AXIS2_PLACEMENT_3D('',#290,#236,#237);
#213=AXIS2_PLACEMENT_3D('',#296,#241,#242);
#214=AXIS2_PLACEMENT_3D('',#298,#244,#245);
#215=AXIS2_PLACEMENT_3D('',#308,#251,#252);
#216=AXIS2_PLACEMENT_3D('',#310,#254,#255);
#217=AXIS2_PLACEMENT_3D('',#312,#257,#258);
#218=AXIS2_PLACEMENT_3D('',#314,#260,#261);
#219=AXIS2_PLACEMENT_3D('',#316,#263,#264);
#220=AXIS2_PLACEMENT_3D('',#317,#265,#266);
#221=DIRECTION('',(0.,0.,1.));
#222=DIRECTION('',(1.,0.,0.));
#223=DIRECTION('',(0.,0.,-1.));
#224=DIRECTION('',(0.,-1.,0.));
#225=DIRECTION('',(0.,0.,-1.));
#226=DIRECTION('',(0.,1.,0.));
#227=DIRECTION('',(-1.,0.,0.));
#228=DIRECTION('',(0.,0.,1.));
#229=DIRECTION('',(-1.,0.,0.));
#230=DIRECTION('',(0.,0.,1.));
#231=DIRECTION('',(1.,0.,0.));
#232=DIRECTION('',(0.,0.,1.));
#233=DIRECTION('',(-1.,0.,0.));
#234=DIRECTION('',(0.,0.,-1.));
#235=DIRECTION('',(-1.,0.,0.));
#236=DIRECTION('',(0.,-1.,0.));
#237=DIRECTION('',(0.,0.,-1.));
#238=DIRECTION('',(0.,1.,0.));
#239=DIRECTION('',(0.,0.,-1.));
#240=DIRECTION('',(0.,-1.,0.));
#241=DIRECTION('',(1.,0.,0.));
#242=DIRECTION('',(0.,0.,-1.));
#243=DIRECTION('',(1.,0.,0.));
#244=DIRECTION('',(0.,0.,1.));
#245=DIRECTION('',(0.,-1.,0.));
#246=DIRECTION('',(1.,0.,0.));
#247=DIRECTION('',(0.,0.,1.));
#248=DIRECTION('',(-1.,0.,0.));
#249=DIRECTION('',(0.,0.,1.));
#250=DIRECTION('',(1.,0.,0.));
#251=DIRECTION('',(0.,1.,0.));
#252=DIRECTION('',(0.,0.,1.));
#253=DIRECTION('',(0.,1.,0.));
#254=DIRECTION('',(0.,0.,1.));
#255=DIRECTION('',(0.,1.,0.));
#256=DIRECTION('',(0.,-1.,0.));
#257=DIRECTION('',(0.,0.,1.));
#258=DIRECTION('',(0.,1.,0.));
#259=DIRECTION('',(0.,1.,0.));
#260=DIRECTION('',(1.,0.,0.));
#261=DIRECTION('',(0.,0.,-1.));
#262=DIRECTION('',(0.,-1.,0.));
#263=DIRECTION('',(-1.,0.,0.));
#264=DIRECTION('',(0.,0.,1.));
#265=DIRECTION('',(0.,0.,-1.));
#266=DIRECTION('',(0.,-1.,0.));
#267=CARTESIAN_POINT('',(0.,0.,0.));
#268=CARTESIAN_POINT('',(-57.5,-3.04999999999996,1.3));
#269=CARTESIAN_POINT('',(-57.5,-3.04999999999996,1.3));
#270=CARTESIAN_POINT('',(-57.5,-3.04999999999996,-0.025));
#271=CARTESIAN_POINT('',(-57.5,-4.89999999999996,-0.025));
#272=CARTESIAN_POINT('',(-57.5,-6.74999999999996,-0.025));
#273=CARTESIAN_POINT('',(-57.5,-6.74999999999996,1.3));
#274=CARTESIAN_POINT('',(-57.5,-6.74999999999996,1.3));
#275=CARTESIAN_POINT('',(-57.5,-4.89999999999996,1.3));
#276=CARTESIAN_POINT('',(-57.5,-4.89999999999996,1.3));
#277=CARTESIAN_POINT('',(-52.5,-6.74999999999996,-0.025));
#278=CARTESIAN_POINT('',(-60.,-6.74999999999996,-0.025));
#279=CARTESIAN_POINT('',(-60.,-6.74999999999996,-0.125));
#280=CARTESIAN_POINT('',(-60.,-6.74999999999996,-0.125));
#281=CARTESIAN_POINT('',(-52.5,-6.74999999999996,-0.125));
#282=CARTESIAN_POINT('',(-45.,-6.74999999999996,-0.125));
#283=CARTESIAN_POINT('',(-45.,-6.74999999999996,-0.125));
#284=CARTESIAN_POINT('',(-45.,-6.74999999999996,-0.025));
#285=CARTESIAN_POINT('',(-52.5,-6.74999999999996,-0.025));
#286=CARTESIAN_POINT('',(-47.5,-6.74999999999996,-0.025));
#287=CARTESIAN_POINT('',(-47.5,-6.74999999999996,1.3));
#288=CARTESIAN_POINT('',(-47.5,-6.74999999999996,1.3));
#289=CARTESIAN_POINT('',(-52.5,-6.74999999999996,1.3));
#290=CARTESIAN_POINT('',(-52.5,-6.74999999999996,1.3));
#291=CARTESIAN_POINT('',(-47.5,-4.89999999999996,-0.025));
#292=CARTESIAN_POINT('',(-47.5,-3.04999999999996,-0.025));
#293=CARTESIAN_POINT('',(-47.5,-3.04999999999996,1.3));
#294=CARTESIAN_POINT('',(-47.5,-3.04999999999996,1.3));
#295=CARTESIAN_POINT('',(-47.5,-4.89999999999996,1.3));
#296=CARTESIAN_POINT('',(-47.5,-4.89999999999996,1.3));
#297=CARTESIAN_POINT('',(-52.5,-3.04999999999996,1.3));
#298=CARTESIAN_POINT('',(-52.5,-4.89999999999996,1.3));
#299=CARTESIAN_POINT('',(-52.5,-3.04999999999996,-0.025));
#300=CARTESIAN_POINT('',(-45.,-3.04999999999996,-0.025));
#301=CARTESIAN_POINT('',(-45.,-3.04999999999996,-0.125));
#302=CARTESIAN_POINT('',(-45.,-3.04999999999996,-0.125));
#303=CARTESIAN_POINT('',(-52.5,-3.04999999999996,-0.125));
#304=CARTESIAN_POINT('',(-60.,-3.04999999999996,-0.125));
#305=CARTESIAN_POINT('',(-60.,-3.04999999999996,-0.125));
#306=CARTESIAN_POINT('',(-60.,-3.04999999999996,-0.025));
#307=CARTESIAN_POINT('',(-52.5,-3.04999999999996,-0.025));
#308=CARTESIAN_POINT('',(-52.5,-3.04999999999996,1.3));
#309=CARTESIAN_POINT('',(-60.,-4.89999999999996,-0.025));
#310=CARTESIAN_POINT('',(-52.5,-4.89999999999996,-0.025));
#311=CARTESIAN_POINT('',(-45.,-4.89999999999996,-0.025));
#312=CARTESIAN_POINT('',(-52.5,-4.89999999999996,-0.025));
#313=CARTESIAN_POINT('',(-45.,-4.89999999999996,-0.125));
#314=CARTESIAN_POINT('',(-45.,-4.89999999999996,-0.125));
#315=CARTESIAN_POINT('',(-60.,-4.89999999999996,-0.125));
#316=CARTESIAN_POINT('',(-60.,-4.89999999999996,-0.125));
#317=CARTESIAN_POINT('',(-52.5,-4.89999999999996,-0.125));
#318=MECHANICAL_DESIGN_GEOMETRIC_PRESENTATION_REPRESENTATION('',(#24),#319);
#319=(
GEOMETRIC_REPRESENTATION_CONTEXT(3)
GLOBAL_UNCERTAINTY_ASSIGNED_CONTEXT((#320))
GLOBAL_UNIT_ASSIGNED_CONTEXT((#326,#322,#321))
REPRESENTATION_CONTEXT('P LIMIT SELECTOR_STEP214',
'TOP_LEVEL_ASSEMBLY_PART')
);
#320=UNCERTAINTY_MEASURE_WITH_UNIT(LENGTH_MEASURE(2.E-005),#326,
'DISTANCE_ACCURACY_VALUE','Maximum Tolerance applied to model');
#321=(
NAMED_UNIT(*)
SI_UNIT($,.STERADIAN.)
SOLID_ANGLE_UNIT()
);
#322=(
CONVERSION_BASED_UNIT('DEGREE',#324)
NAMED_UNIT(#323)
PLANE_ANGLE_UNIT()
);
#323=DIMENSIONAL_EXPONENTS(0.,0.,0.,0.,0.,0.,0.);
#324=PLANE_ANGLE_MEASURE_WITH_UNIT(PLANE_ANGLE_MEASURE(0.0174532925),#325);
#325=(
NAMED_UNIT(*)
PLANE_ANGLE_UNIT()
SI_UNIT($,.RADIAN.)
);
#326=(
LENGTH_UNIT()
NAMED_UNIT(*)
SI_UNIT(.MILLI.,.METRE.)
);
ENDSEC;
END-ISO-10303-21;
